ISO-10303-21;
HEADER;
FILE_DESCRIPTION (( 'STEP AP203' ),
    '1' );
FILE_NAME ('TK060.827.STEP',
    '2019-01-04T11:24:10',
    ( '' ),
    ( '' ),
    'SwSTEP 2.0',
    'SolidWorks 2018',
    '' );
FILE_SCHEMA (( 'CONFIG_CONTROL_DESIGN' ));
ENDSEC;

DATA;
#1 = APPROVAL_PERSON_ORGANIZATION ( #48, #121, #72 ) ;
#2 = FACE_OUTER_BOUND ( 'NONE', #148, .T. ) ;
#3 = EDGE_CURVE ( 'NONE', #75, #75, #125, .T. ) ;
#4 = APPROVAL ( #34, 'UNSPECIFIED' ) ;
#5 = DESIGN_CONTEXT ( 'detailed design', #22, 'design' ) ;
#6 = APPROVAL_PERSON_ORGANIZATION ( #40, #4, #43 ) ;
#7 = APPROVAL ( #87, 'UNSPECIFIED' ) ;
#8 = EDGE_LOOP ( 'NONE', ( #53 ) ) ;
#9 =( NAMED_UNIT ( * ) SI_UNIT ( $, .STERADIAN. ) SOLID_ANGLE_UNIT ( ) );
#10 = COORDINATED_UNIVERSAL_TIME_OFFSET ( 3, 0, .AHEAD. ) ;
#11 = LOCAL_TIME ( 14, 24, 10.00000000000000000, #144 ) ;
#12 = DIRECTION ( 'NONE',  ( 1.000000000000000000, 0.0000000000000000000, 0.0000000000000000000 ) ) ;
#13 = EDGE_LOOP ( 'NONE', ( #141 ) ) ;
#14 = AXIS2_PLACEMENT_3D ( 'NONE', #60, #70, #163 ) ;
#15 = CC_DESIGN_PERSON_AND_ORGANIZATION_ASSIGNMENT ( #68, #136, ( #137 ) ) ;
#16 = LOCAL_TIME ( 14, 24, 10.00000000000000000, #10 ) ;
#17 = ADVANCED_FACE ( 'NONE', ( #155, #119 ), #82, .F. ) ;
#18 = VERTEX_POINT ( 'NONE', #26 ) ;
#19 = CC_DESIGN_DATE_AND_TIME_ASSIGNMENT ( #150, #57, ( #137 ) ) ;
#20 = SHAPE_DEFINITION_REPRESENTATION ( #114, #30 ) ;
#21 = EDGE_LOOP ( 'NONE', ( #50 ) ) ;
#22 = APPLICATION_CONTEXT ( 'configuration controlled 3d designs of mechanical parts and assemblies' ) ;
#23 = CC_DESIGN_PERSON_AND_ORGANIZATION_ASSIGNMENT ( #101, #117, ( #112 ) ) ;
#24 = DIRECTION ( 'NONE',  ( 0.0000000000000000000, 0.0000000000000000000, 1.000000000000000000 ) ) ;
#25 = ORIENTED_EDGE ( 'NONE', *, *, #78, .F. ) ;
#26 = CARTESIAN_POINT ( 'NONE',  ( 24.00000000000000355, 0.0000000000000000000, 0.0000000000000000000 ) ) ;
#27 = SECURITY_CLASSIFICATION_LEVEL ( 'unclassified' ) ;
#28 = PERSON_AND_ORGANIZATION ( #103, #66 ) ;
#29 = ORIENTED_EDGE ( 'NONE', *, *, #149, .T. ) ;
#30 = ADVANCED_BREP_SHAPE_REPRESENTATION ( 'TK060.827', ( #129, #65 ), #104 ) ;
#31 = AXIS2_PLACEMENT_3D ( 'NONE', #36, #165, #138 ) ;
#32 = CC_DESIGN_APPROVAL ( #4, ( #137 ) ) ;
#33 = COORDINATED_UNIVERSAL_TIME_OFFSET ( 3, 0, .AHEAD. ) ;
#34 = APPROVAL_STATUS ( 'not_yet_approved' ) ;
#35 = DIRECTION ( 'NONE',  ( 0.0000000000000000000, 0.0000000000000000000, 1.000000000000000000 ) ) ;
#36 = CARTESIAN_POINT ( 'NONE',  ( 0.0000000000000000000, 0.0000000000000000000, 1000.000000000000000 ) ) ;
#37 = DIRECTION ( 'NONE',  ( 0.0000000000000000000, 0.0000000000000000000, 1.000000000000000000 ) ) ;
#38 = FACE_BOUND ( 'NONE', #13, .T. ) ;
#39 = CC_DESIGN_PERSON_AND_ORGANIZATION_ASSIGNMENT ( #158, #86, ( #91 ) ) ;
#40 = PERSON_AND_ORGANIZATION ( #103, #66 ) ;
#41 = CC_DESIGN_APPROVAL ( #121, ( #112 ) ) ;
#42 = CIRCLE ( 'NONE', #145, 24.00000000000000355 ) ;
#43 = APPROVAL_ROLE ( '' ) ;
#44 = CC_DESIGN_PERSON_AND_ORGANIZATION_ASSIGNMENT ( #64, #153, ( #91 ) ) ;
#45 = LOCAL_TIME ( 14, 24, 10.00000000000000000, #147 ) ;
#46 =( NAMED_UNIT ( * ) PLANE_ANGLE_UNIT ( ) SI_UNIT ( $, .RADIAN. ) );
#47 = CIRCLE ( 'NONE', #58, 20.00000000000000000 ) ;
#48 = PERSON_AND_ORGANIZATION ( #103, #66 ) ;
#49 = PERSON_AND_ORGANIZATION ( #103, #66 ) ;
#50 = ORIENTED_EDGE ( 'NONE', *, *, #106, .F. ) ;
#51 = CC_DESIGN_DATE_AND_TIME_ASSIGNMENT ( #74, #142, ( #112 ) ) ;
#52 = APPLICATION_PROTOCOL_DEFINITION ( 'international standard', 'config_control_design', 1994, #54 ) ;
#53 = ORIENTED_EDGE ( 'NONE', *, *, #3, .F. ) ;
#54 = APPLICATION_CONTEXT ( 'configuration controlled 3d designs of mechanical parts and assemblies' ) ;
#55 = PERSON_AND_ORGANIZATION_ROLE ( 'design_owner' ) ;
#56 = CC_DESIGN_APPROVAL ( #7, ( #91 ) ) ;
#57 = DATE_TIME_ROLE ( 'creation_date' ) ;
#58 = AXIS2_PLACEMENT_3D ( 'NONE', #97, #24, #130 ) ;
#59 = PLANE ( 'NONE',  #77 ) ;
#60 = CARTESIAN_POINT ( 'NONE',  ( 0.0000000000000000000, 0.0000000000000000000, 1000.000000000000000 ) ) ;
#61 = DATE_AND_TIME ( #93, #16 ) ;
#62 = CARTESIAN_POINT ( 'NONE',  ( 0.0000000000000000000, 0.0000000000000000000, 1000.000000000000000 ) ) ;
#63 = APPROVAL_STATUS ( 'not_yet_approved' ) ;
#64 = PERSON_AND_ORGANIZATION ( #103, #66 ) ;
#65 = AXIS2_PLACEMENT_3D ( 'NONE', #111, #161, #160 ) ;
#66 = ORGANIZATION ( 'UNSPECIFIED', 'UNSPECIFIED', '' ) ;
#67 = APPROVAL_DATE_TIME ( #98, #7 ) ;
#68 = PERSON_AND_ORGANIZATION ( #103, #66 ) ;
#69 = DIRECTION ( 'NONE',  ( 0.0000000000000000000, 0.0000000000000000000, 1.000000000000000000 ) ) ;
#70 = DIRECTION ( 'NONE',  ( -0.0000000000000000000, -0.0000000000000000000, -1.000000000000000000 ) ) ;
#71 =( LENGTH_UNIT ( ) NAMED_UNIT ( * ) SI_UNIT ( .MILLI., .METRE. ) );
#72 = APPROVAL_ROLE ( '' ) ;
#73 = PRODUCT_RELATED_PRODUCT_CATEGORY ( 'detail', '', ( #76 ) ) ;
#74 = DATE_AND_TIME ( #113, #45 ) ;
#75 = VERTEX_POINT ( 'NONE', #115 ) ;
#76 = PRODUCT ( 'TK060.827', 'TK060.827', '', ( #109 ) ) ;
#77 = AXIS2_PLACEMENT_3D ( 'NONE', #94, #83, #124 ) ;
#78 = EDGE_CURVE ( 'NONE', #159, #159, #80, .T. ) ;
#79 = COORDINATED_UNIVERSAL_TIME_OFFSET ( 3, 0, .AHEAD. ) ;
#80 = CIRCLE ( 'NONE', #95, 24.00000000000000355 ) ;
#81 = CYLINDRICAL_SURFACE ( 'NONE', #14, 24.00000000000000355 ) ;
#82 = CYLINDRICAL_SURFACE ( 'NONE', #31, 20.00000000000000000 ) ;
#83 = DIRECTION ( 'NONE',  ( 0.0000000000000000000, 0.0000000000000000000, 1.000000000000000000 ) ) ;
#84 = ORIENTED_EDGE ( 'NONE', *, *, #78, .T. ) ;
#85 = DIRECTION ( 'NONE',  ( 0.0000000000000000000, 0.0000000000000000000, 1.000000000000000000 ) ) ;
#86 = PERSON_AND_ORGANIZATION_ROLE ( 'creator' ) ;
#87 = APPROVAL_STATUS ( 'not_yet_approved' ) ;
#88 = FACE_BOUND ( 'NONE', #8, .T. ) ;
#89 = ADVANCED_FACE ( 'NONE', ( #110, #2 ), #81, .T. ) ;
#90 = APPROVAL_PERSON_ORGANIZATION ( #28, #7, #168 ) ;
#91 = PRODUCT_DEFINITION_FORMATION_WITH_SPECIFIED_SOURCE ( 'ANY', '', #76, .NOT_KNOWN. ) ;
#92 = ORIENTED_EDGE ( 'NONE', *, *, #149, .F. ) ;
#93 = CALENDAR_DATE ( 2019, 4, 1 ) ;
#94 = CARTESIAN_POINT ( 'NONE',  ( 0.0000000000000000000, 0.0000000000000000000, 0.0000000000000000000 ) ) ;
#95 = AXIS2_PLACEMENT_3D ( 'NONE', #127, #35, #126 ) ;
#96 = DIRECTION ( 'NONE',  ( 1.000000000000000000, 0.0000000000000000000, 0.0000000000000000000 ) ) ;
#97 = CARTESIAN_POINT ( 'NONE',  ( 0.0000000000000000000, 0.0000000000000000000, 0.0000000000000000000 ) ) ;
#98 = DATE_AND_TIME ( #134, #164 ) ;
#99 = CARTESIAN_POINT ( 'NONE',  ( 20.00000000000000000, 0.0000000000000000000, 0.0000000000000000000 ) ) ;
#100 = CARTESIAN_POINT ( 'NONE',  ( 0.0000000000000000000, 0.0000000000000000000, 1000.000000000000000 ) ) ;
#101 = PERSON_AND_ORGANIZATION ( #103, #66 ) ;
#102 = DATE_AND_TIME ( #139, #11 ) ;
#103 = PERSON ( 'UNSPECIFIED', 'UNSPECIFIED', 'UNSPECIFIED', ('UNSPECIFIED'), ('UNSPECIFIED'), ('UNSPECIFIED') ) ;
#104 =( GEOMETRIC_REPRESENTATION_CONTEXT ( 3 ) GLOBAL_UNCERTAINTY_ASSIGNED_CONTEXT ( ( #116 ) ) GLOBAL_UNIT_ASSIGNED_CONTEXT ( ( #71, #46, #9 ) ) REPRESENTATION_CONTEXT ( 'NONE', 'WORKASPACE' ) );
#105 = ORIENTED_EDGE ( 'NONE', *, *, #3, .T. ) ;
#106 = EDGE_CURVE ( 'NONE', #152, #152, #47, .T. ) ;
#107 = APPROVAL_DATE_TIME ( #61, #121 ) ;
#108 = APPROVAL_DATE_TIME ( #102, #4 ) ;
#109 = MECHANICAL_CONTEXT ( 'NONE', #54, 'mechanical' ) ;
#110 = FACE_OUTER_BOUND ( 'NONE', #122, .T. ) ;
#111 = CARTESIAN_POINT ( 'NONE',  ( 0.0000000000000000000, 0.0000000000000000000, 0.0000000000000000000 ) ) ;
#112 = SECURITY_CLASSIFICATION ( '', '', #27 ) ;
#113 = CALENDAR_DATE ( 2019, 4, 1 ) ;
#114 = PRODUCT_DEFINITION_SHAPE ( 'NONE', 'NONE',  #137 ) ;
#115 = CARTESIAN_POINT ( 'NONE',  ( 20.00000000000000000, 0.0000000000000000000, 1000.000000000000000 ) ) ;
#116 = UNCERTAINTY_MEASURE_WITH_UNIT (LENGTH_MEASURE( 1.000000000000000082E-05 ), #71, 'distance_accuracy_value', 'NONE');
#117 = PERSON_AND_ORGANIZATION_ROLE ( 'classification_officer' ) ;
#118 = AXIS2_PLACEMENT_3D ( 'NONE', #62, #69, #96 ) ;
#119 = FACE_OUTER_BOUND ( 'NONE', #21, .T. ) ;
#120 = ADVANCED_FACE ( 'NONE', ( #169, #38 ), #59, .F. ) ;
#121 = APPROVAL ( #63, 'UNSPECIFIED' ) ;
#122 = EDGE_LOOP ( 'NONE', ( #25 ) ) ;
#123 = APPLICATION_PROTOCOL_DEFINITION ( 'international standard', 'config_control_design', 1994, #22 ) ;
#124 = DIRECTION ( 'NONE',  ( 1.000000000000000000, 0.0000000000000000000, -0.0000000000000000000 ) ) ;
#125 = CIRCLE ( 'NONE', #118, 20.00000000000000000 ) ;
#126 = DIRECTION ( 'NONE',  ( 1.000000000000000000, 0.0000000000000000000, 0.0000000000000000000 ) ) ;
#127 = CARTESIAN_POINT ( 'NONE',  ( 0.0000000000000000000, 0.0000000000000000000, 1000.000000000000000 ) ) ;
#128 = AXIS2_PLACEMENT_3D ( 'NONE', #100, #85, #131 ) ;
#129 = MANIFOLD_SOLID_BREP ( 'Boss-Extrude1', #135 ) ;
#130 = DIRECTION ( 'NONE',  ( 1.000000000000000000, 0.0000000000000000000, 0.0000000000000000000 ) ) ;
#131 = DIRECTION ( 'NONE',  ( 1.000000000000000000, 0.0000000000000000000, -0.0000000000000000000 ) ) ;
#132 = ADVANCED_FACE ( 'NONE', ( #151, #88 ), #166, .T. ) ;
#133 = LOCAL_TIME ( 14, 24, 10.00000000000000000, #33 ) ;
#134 = CALENDAR_DATE ( 2019, 4, 1 ) ;
#135 = CLOSED_SHELL ( 'NONE', ( #132, #120, #89, #17 ) ) ;
#136 = PERSON_AND_ORGANIZATION_ROLE ( 'creator' ) ;
#137 = PRODUCT_DEFINITION ( 'UNKNOWN', '', #91, #5 ) ;
#138 = DIRECTION ( 'NONE',  ( -1.000000000000000000, 0.0000000000000000000, 0.0000000000000000000 ) ) ;
#139 = CALENDAR_DATE ( 2019, 4, 1 ) ;
#140 = CARTESIAN_POINT ( 'NONE',  ( 24.00000000000000355, 0.0000000000000000000, 1000.000000000000000 ) ) ;
#141 = ORIENTED_EDGE ( 'NONE', *, *, #106, .T. ) ;
#142 = DATE_TIME_ROLE ( 'classification_date' ) ;
#143 = CALENDAR_DATE ( 2019, 4, 1 ) ;
#144 = COORDINATED_UNIVERSAL_TIME_OFFSET ( 3, 0, .AHEAD. ) ;
#145 = AXIS2_PLACEMENT_3D ( 'NONE', #167, #37, #12 ) ;
#146 = EDGE_LOOP ( 'NONE', ( #105 ) ) ;
#147 = COORDINATED_UNIVERSAL_TIME_OFFSET ( 3, 0, .AHEAD. ) ;
#148 = EDGE_LOOP ( 'NONE', ( #29 ) ) ;
#149 = EDGE_CURVE ( 'NONE', #18, #18, #42, .T. ) ;
#150 = DATE_AND_TIME ( #143, #133 ) ;
#151 = FACE_OUTER_BOUND ( 'NONE', #157, .T. ) ;
#152 = VERTEX_POINT ( 'NONE', #99 ) ;
#153 = PERSON_AND_ORGANIZATION_ROLE ( 'design_supplier' ) ;
#154 = EDGE_LOOP ( 'NONE', ( #92 ) ) ;
#155 = FACE_OUTER_BOUND ( 'NONE', #146, .T. ) ;
#156 = CC_DESIGN_SECURITY_CLASSIFICATION ( #112, ( #91 ) ) ;
#157 = EDGE_LOOP ( 'NONE', ( #84 ) ) ;
#158 = PERSON_AND_ORGANIZATION ( #103, #66 ) ;
#159 = VERTEX_POINT ( 'NONE', #140 ) ;
#160 = DIRECTION ( 'NONE',  ( 1.000000000000000000, 0.0000000000000000000, 0.0000000000000000000 ) ) ;
#161 = DIRECTION ( 'NONE',  ( 0.0000000000000000000, 0.0000000000000000000, 1.000000000000000000 ) ) ;
#162 = CC_DESIGN_PERSON_AND_ORGANIZATION_ASSIGNMENT ( #49, #55, ( #76 ) ) ;
#163 = DIRECTION ( 'NONE',  ( -1.000000000000000000, 0.0000000000000000000, 0.0000000000000000000 ) ) ;
#164 = LOCAL_TIME ( 14, 24, 10.00000000000000000, #79 ) ;
#165 = DIRECTION ( 'NONE',  ( -0.0000000000000000000, -0.0000000000000000000, -1.000000000000000000 ) ) ;
#166 = PLANE ( 'NONE',  #128 ) ;
#167 = CARTESIAN_POINT ( 'NONE',  ( 0.0000000000000000000, 0.0000000000000000000, 0.0000000000000000000 ) ) ;
#168 = APPROVAL_ROLE ( '' ) ;
#169 = FACE_OUTER_BOUND ( 'NONE', #154, .T. ) ;
ENDSEC;
END-ISO-10303-21;
